HHPortal 1,407,531 Üye | 616,003 Konu | 5,099,965 Mesaj | 1389 Online
Go Back   HHPortal > Müzik Dünyası > Müzik Türleri-Enstrümanları-Dersleri

iddaa

Yeni başlayanlar için Basit Gitar Tabları

 Müzik Dünyası Katagorisinde ve  Müzik Türleri-Enstrümanları-Dersleri Forumunda Bulunan  Yeni başlayanlar için Basit Gitar Tabları Konusunu Görüntülemektesiniz.=>Merhaba arkadaşlar bu işe yeni başlayanlar için basit bir kaç tab vermek istedim... Bunlar Türkçe Şarkılardır... E:en altta ki Mİ ...


Cevapla
 
LinkBack Seçenekler Stil
Alt 30-10-2008, 04:36 AM   #1
ΜεтάĻïڪţ
^_^-/!ηєω ѕнιт!\-^_^
 
ΜεтάĻïڪţ - ait Kullanıcı Resmi (Avatar)
 
Üyelik tarihi: Nov 2007
Bulunduğu yer: long a way...
Mesajlar: 1,927
Teşekkürleri: 591
660 mesajına 2,082 kere teşekkür edildi.
ΜεтάĻïڪţ - MSN üzeri Mesaj gönder
Zuupla
Yeni başlayanlar için Basit Gitar Tabları Yeni başlayanlar için Basit Gitar Tabları




Merhaba arkadaşlar bu işe yeni başlayanlar için basit bir kaç tab vermek istedim...

Bunlar Türkçe Şarkılardır...

E:en altta ki Mİ teli.
B:Sİ teli
G:SOL teli
D:RE teli
A:LA teli
E:en üstte ki Mİ teli



HALUK LEVENT YOLLARDA BULURUM SENİ TAB BUYUR ÖZGECİM

E--7-8-7-5-5-5-7-8 / 5-5-7-5-3-3-3-5-7 / 3-3-5-3-2-2-3-5 / 5-3-2-3-2-0-0


BİR SEVMEK BİN DEFA ÖLMEK DEMEKMİŞ

E------------------------------------------------------------------------------------------------------------------
B------------------------------------------------------------------------------------------------------------------
G----------6-6-10-8-10-10-8-6-5-6-6-6-6-6-6-8-5-5-6-8-6-5-3-5---------------------------------



E------------------------------------------------------------------------------------------------------------------
B------------------------------------------------------------------------------------------------------------------
G--------10-10-86-5-3-5-5-6-8-6-5-3-1-1-1-1-1-1-3-0-0-1-3-1-0-------------0------------------
D--------------------------------------------------------------------------------------3--------------------------





HATIRLA SEVGİLİ

E------------------------------------------------------------------------------------------------------------------
B------------------------------------------------------------------------------------------------------------------
G-------2---0---------2----------------------2---0--------------------------------------------------------------
D-0-3-----------3--------------------0-3-------------3-2------------------------------------------------------

E------------------------------------------------------------------------------------------------------------------
B------------------------------------------------------------------------------------------------------------------
G-------0-------------------0-------------3------------2-------------0----------------------------------------
D-2-3--------------3-2--------------------------------------2-3----------3-2-0-----------------------------


E-------0-----------------------------------------------------------------------------------------------------
B-2-3------2------------------------------------------------------------------------------------------------
G------------------3--2----------------------------3------3------2----0--------2--------------------------
D------------------------------------------------------------------------------3------------------------------


E---------------------------------------------------------------------------------------------------------------
B---------------------------------------------------------------------------------------------------------------
G--3----3-------2-0-------2------0-----------------------0-------------------------------------------------
D-----------------------3-----------------3-2-0-----2-3--------3------2------0---------------------------




Tarkan / Asla Vazgeçemem
e|---------------------------------------------------------|
B|----1--1-1-0-0---------1-0---0-0-------------0-----------|
G|---------------2-2-0-2-----------2-2-0-0---0---2---------|
D|--2--------------------------------------3---------------|
A|---------------------------------------------------------|
E|---------------------------------------------------------|

e|---------------------------------------------------------|
B|----0-1----------0-1-------------------------------------|
G|--2-------0-2--2---------0-------------------------------|
D|--------3------------2-3---------------------------------|
A|---------------------------------------------------------|
E|---------------------------------------------------------|







mecburen

e|--3--3--1--0-----3-1-0---11-0------1--0------------5--3---1--1--0----------|
B|---------------------------------------3---------3--111----------------------3--1----|


e|--3-1-0-----3-1-0---1-0-------1-1-0--------------5--3---1--1--0----------|
B|---------------------------------3----------3--1-1-1----------------------3--1----|




ŞARKININ BAŞLANGICI
İki Yol (solo)
Mavi Sakal


E||-0-2-2-0-2-3-2-3-5-3-2-3---------------
B||----------------------------------3-0--
G||---------------------------------------
D||---------------------------------------
A||--------------------------|------------
E||--------------------------|------------




Pinhani -- Hele Bir Gel Tab (Basit Tabı)

e-----8--7--5--5----4--5----5--4--5--7--5--4--5--0------
B-----------------------------------------------------------------
G-----------------------------------------------------------------
D-----------------------------------------------------------------
A-----------------------------------------------------------------
E-----------------------------------------------------------------


e-----8--7--5--5----4--5----5--5--4--5--7--5--4--5------
B-----------------------------------------------------------------
G-----------------------------------------------------------------
D-----------------------------------------------------------------
A-----------------------------------------------------------------
E-----------------------------------------------------------------









ΜεтάĻïڪţ isimli üyemiz çevrimdışıdır. (Offline)  

 

Digg this Post!Add Post to del.icio.usBookmark Post in TechnoratiFurl this Post!Mesajı Spurl ile Paylas!
Alıntı ile Cevapla
Bu mesaj için ΜεтάĻïڪţ kullanıcısına teşekkür eden 7 üyemiz:
BEKUDUK (02-04-2010), emuss (14-05-2009), gitaris212 (16-02-2013), kakiri (24-11-2010), reklamsız (30-08-2009), RingAteşi (07-11-2008), ugur (16-02-2013)

Zuupla

Alt 07-11-2008, 11:09 PM   #2
RingAteşi
KicKBoks
 
RingAteşi - ait Kullanıcı Resmi (Avatar)
 
Üyelik tarihi: May 2007
Bulunduğu yer: Kadiköy-Ataşehir
Yaş: 23
Mesajlar: 2,399
Teşekkürleri: 3,561
1,003 mesajına 2,191 kere teşekkür edildi.
RingAteşi - MSN üzeri Mesaj gönder
Zuupla
Saol usta nerden buldun bunları?Ben sadce birinci parçayı çalabildim:D

RingAteşi isimli üyemiz çevrimdışıdır. (Offline)  

 

Digg this Post!Add Post to del.icio.usBookmark Post in TechnoratiFurl this Post!Mesajı Spurl ile Paylas!
Alıntı ile Cevapla

Alt 12-11-2008, 09:11 PM   #3
ΜεтάĻïڪţ
^_^-/!ηєω ѕнιт!\-^_^
 
ΜεтάĻïڪţ - ait Kullanıcı Resmi (Avatar)
 
Üyelik tarihi: Nov 2007
Bulunduğu yer: long a way...
Mesajlar: 1,927
Teşekkürleri: 591
660 mesajına 2,082 kere teşekkür edildi.
ΜεтάĻïڪţ - MSN üzeri Mesaj gönder
Zuupla
bende çalıyorum da ben notadan gidiyorum....

az kas kendini sende :D hergün az da olsa zaman ayır gitara ugras çalarsın ;)

ΜεтάĻïڪţ isimli üyemiz çevrimdışıdır. (Offline)  

 

Digg this Post!Add Post to del.icio.usBookmark Post in TechnoratiFurl this Post!Mesajı Spurl ile Paylas!
Alıntı ile Cevapla

Alt 13-11-2008, 09:05 PM   #4
yasinim2
Misafir
 
Üyelik tarihi: Nov 2008
Mesajlar: 1
Teşekkürleri: 0
0 mesajına 0 kere teşekkür edildi.
Zuupla
yav arkadaşlar bende yeni başaldım gitara fakat yukarda yazılanlardan hiç bişey anlamadım nasıl bu yeni başlıyanlar için

yasinim2 isimli üyemiz çevrimdışıdır. (Offline)  

 

Digg this Post!Add Post to del.icio.usBookmark Post in TechnoratiFurl this Post!Mesajı Spurl ile Paylas!
Alıntı ile Cevapla

Alt 13-11-2008, 09:21 PM   #5
anakinrick
1.618
 
anakinrick - ait Kullanıcı Resmi (Avatar)
 
Üyelik tarihi: Jun 2008
Bulunduğu yer: now, after, forever ...
Yaş: 21
Mesajlar: 3,936
Teşekkürleri: 5,622
1,798 mesajına 3,614 kere teşekkür edildi.
anakinrick - MSN üzeri Mesaj gönder
Zuupla
Alıntı:
yasinim2 Nickli Üyeden Alıntı Mesajı göster
yav arkadaşlar bende yeni başaldım gitara fakat yukarda yazılanlardan hiç bişey anlamadım nasıl bu yeni başlıyanlar için
hocam sole anlatıyım gıtarında çizgiler arasında kalan her kısım perdedır ve her tel ıcın ayrı bı notayı temsıl eder yukardakı sayıların olduğu cızgı dızılerının her bırı bır teldır ve gıtarı tuttuğunda ters olarak yazılır
her neyse işte orda her sayı kacıncı tele basıcaın anlamına gelır o sekılde doğru sırayla calarsan kısa surede pek cok sarkının tabını rahatca calarsın

anakinrick isimli üyemiz çevrimdışıdır. (Offline)  

 

Digg this Post!Add Post to del.icio.usBookmark Post in TechnoratiFurl this Post!Mesajı Spurl ile Paylas!
Alıntı ile Cevapla

Alt 16-02-2013, 11:00 AM   #6
gitaris212
Misafir
 
Üyelik tarihi: Feb 2013
Mesajlar: 2
Teşekkürleri: 1
1 mesajına 1 kere teşekkür edildi.
Zuupla
abicim ALLAH senden bin razı olsun çok yardımcı oldun teşekkürler.bu mesajı atabilmek için üye oldum tekrar saol

gitaris212 isimli üyemiz çevrimdışıdır. (Offline)  

 

Digg this Post!Add Post to del.icio.usBookmark Post in TechnoratiFurl this Post!Mesajı Spurl ile Paylas!
Alıntı ile Cevapla
Bu mesaj için gitaris212 kullanıcısına teşekkür edenler:
ugur (16-02-2013)

Cevapla

Etiketler
basit, baslayanlar, gitar, icin, tablari, yeni


Konuyu Toplam 1 Üye okuyor. (0 Kayıtlı üye ve 1 Misafir)
 
Seçenekler
Stil

Yetkileriniz
Konu Acma Yetkiniz Yok
Cevap Yazma Yetkiniz Yok
Eklenti Yükleme Yetkiniz Yok
Mesajınızı Değiştirme Yetkiniz Yok

BB code is Açık
Smileler Açık
[IMG] Kodları Açık
HTML-Kodu Kapalı
Trackbacks are Kapalı
Pingbacks are Kapalı
Refbacks are Kapalı



Tüm Zamanlar GMT +3 Olarak Ayarlanmış. Şuanki Zaman: 04:52 AM.

Forum Yasal Uyarı HH
Kullanılan Portal Sürümü : HH Portal
Script Sürümü : vBulletin Version 3.8.4 PL1
Seo Yazılımı : vBSEO ©2009, Crawlability, Inc
Copyright ©2000 - 2014, Jelsoft Enterprises Ltd.
Sitemiz Internet Explorer 6+, Firefox 2.0.0.14+, Opera 9.52+, Safari 3.1.2+, Chrome 0.2.153.1+ ve 1024x768+ Ekran Çözünürlüğünde Test Edilmiştir.
Sitemiz, hukuka, yasalara, telif haklarına ve kişilik haklarına saygılı olmayı amaç edinmiştir. Sitemiz, 5651 sayılı yasada tanımlanan .yer sağlayıcı. olarak hizmet vermektedir. İlgili yasaya göre, site yönetiminin hukuka aykırı içerikleri kontrol etme yükümlülüğü yoktur. Bu sebeple, sitemiz .uyar ve kaldır. prensibini benimsemiştir. Telif hakkına konu olan eserlerin yasal olmayan bir biçimde paylaşıldığını ve yasal haklarının çiğnendiğini düşünen hak sahipleri veya meslek birlikleri, bora@tabakoglu.com mail adresinden bize ulaşabilirler. Buraya ulaşan talep ve şikayetler Hukuk Müşavirimiz tarafından incelenecek, şikayet yerinde görüldüğü takdirde ihlal olduğu düşünülen içerikler sitemizden kaldırılacaktır.

HHPortal İçerik ve Yer Sağlayıcı İletişim Bilgileri İçin Tıklayınız.

Valid CSS!